Fandom

Music Wiki

Guitar Tab:(Don't Fear) The Reaper

17,467pages on
this wiki
Add New Page
Comments0 Share

Key of C


  Am       G        F       G



2-0--------0--------0-------0-
2----------0--------0-------0---

---0----------2--------3-------2-----


3--------1-------3-------


Let the open 'G' ring out each time


1st verse :

Am G F G Am G F G All our times have come. ( music )

Am G F G Am G F G Here but now they're gone. ( music )


F G Am Seasons don't fear the reaper nor


      F          E               Am

do the wind, the sun or the rain. We


   G           F       G         Am

can be like they are. Come on baby. Don't

Fear the Reaper...


1st solo break :

--15-13-12-13-12--------------------------------------------


15^17---15-13-12---------------------------
12----14------------------
14---------------------



12-13-12----15-15^17^15-13-12--------------------------

--14----------14-------------------12----14-----------------


14--------------------


12--------------------------------------------------

--10^12----12^13^l2-10------12-10---------------------------


12-9---------------------------------



2nd verse :

As 1st verse above


2nd solo break :

-12------------------12-------------------------------------


12^13^12-10---------12^13^12-10----10-10-10-------------
12----------------------



-10-12^13^12--10-8s10-10s12-12s10---------------------------





Bucks partial lead:

No Chord ( and no bass )



13------13------13------13------13-------------------

--10-13---10-13---10-13---10-13---10-13---------------------






12------12------12------12------12------12-----------

--10-12---10-12---10-12---10-12---10-12---10-12-------------






13------13------13------13------13-------------------

--10-13---10-13---10-13---10-13---10-13---------------------






12------12------12------12------12------12-----------

--10-12---10-12---10-12---10-12---10-12---10-12-------------





Main Solo (really cool sounding) : t = trill


-15t-15^16--13h15p13-12-13-15-15---------------13---15^16^15


15---15-16-15----16--------



s19-19-19^20--15-15-15h16p15---15h16p15----15-13h15p13---13-


18-------------17---




15^17^15-13-11-13----11-

-15-17-13---12h13p12----------------------------------15----


12h13p12----12-------------------------



-13-15-15^16^15---13-12h13p12-13-12h13p12-------------------


13p12-12----12----
15-------


13------------
13-12----13-12-------------------------13---------------

-12-------l2-------12-12s10-10-------12-13-------13-12------


15------------------------


15^17^15------------------------------------------------

-12----------12-12s10-10----10h12-12------------------------




Ad blocker interference detected!


Wikia is a free-to-use site that makes money from advertising. We have a modified experience for viewers using ad blockers

Wikia is not accessible if you’ve made further modifications. Remove the custom ad blocker rule(s) and the page will load as expected.